  0
SECTION
  2
HEADER
  9
$ACADVER
  1
AC1014
  9
$ACADMAINTVER
 70
     0
  9
$DWGCODEPAGE
  3
ANSI_1252
  9
$INSBASE
 10
0.0
 20
0.0
 30
0.0
  9
$EXTMIN
 10
0.0
 20
-7.625
 30
0.0
  9
$EXTMAX
 10
96.0
 20
0.0
 30
0.0
  9
$LIMMIN
 10
0.0
 20
0.0
  9
$LIMMAX
 10
3456.096
 20
2304.096
  9
$ORTHOMODE
 70
     1
  9
$REGENMODE
 70
     1
  9
$FILLMODE
 70
     1
  9
$QTEXTMODE
 70
     0
  9
$MIRRTEXT
 70
     1
  9
$DRAGMODE
 70
     2
  9
$LTSCALE
 40
25.0
  9
$OSMODE
 70
     0
  9
$ATTMODE
 70
     1
  9
$TEXTSIZE
 40
12.0
  9
$TRACEWID
 40
6.0
  9
$TEXTSTYLE
  7
ROMANS
  9
$CLAYER
  8
0
  9
$CELTYPE
  6
HIDDEN2
  9
$CECOLOR
 62
   256
  9
$CELTSCALE
 40
1.0
  9
$DELOBJ
 70
     1
  9
$DISPSILH
 70
     0
  9
$DIMSCALE
 40
96.0
  9
$DIMASZ
 40
0.125
  9
$DIMEXO
 40
0.0625
  9
$DIMDLI
 40
0.0
  9
$DIMRND
 40
0.125
  9
$DIMDLE
 40
0.0
  9
$DIMEXE
 40
0.0625
  9
$DIMTP
 40
0.0
  9
$DIMTM
 40
0.0
  9
$DIMTXT
 40
0.125
  9
$DIMCEN
 40
0.09375
  9
$DIMTSZ
 40
0.0
  9
$DIMTOL
 70
     0
  9
$DIMLIM
 70
     0
  9
$DIMTIH
 70
     0
  9
$DIMTOH
 70
     0
  9
$DIMSE1
 70
     0
  9
$DIMSE2
 70
     0
  9
$DIMTAD
 70
     1
  9
$DIMZIN
 70
     3
  9
$DIMBLK
  1

  9
$DIMASO
 70
     0
  9
$DIMSHO
 70
     1
  9
$DIMPOST
  1
 
  9
$DIMAPOST
  1

  9
$DIMALT
 70
     0
  9
$DIMALTD
 70
     2
  9
$DIMALTF
 40
25.4
  9
$DIMLFAC
 40
1.0
  9
$DIMTOFL
 70
     1
  9
$DIMTVP
 40
0.0
  9
$DIMTIX
 70
     1
  9
$DIMSOXD
 70
     0
  9
$DIMSAH
 70
     0
  9
$DIMBLK1
  1

  9
$DIMBLK2
  1

  9
$DIMSTYLE
  2
FACDIM
  9
$DIMCLRD
 70
     3
  9
$DIMCLRE
 70
     3
  9
$DIMCLRT
 70
   256
  9
$DIMTFAC
 40
0.8
  9
$DIMGAP
 40
0.0312
  9
$DIMJUST
 70
     0
  9
$DIMSD1
 70
     0
  9
$DIMSD2
 70
     0
  9
$DIMTOLJ
 70
     1
  9
$DIMTZIN
 70
     0
  9
$DIMALTZ
 70
     0
  9
$DIMALTTZ
 70
     0
  9
$DIMFIT
 70
     3
  9
$DIMUPT
 70
     0
  9
$DIMUNIT
 70
     6
  9
$DIMDEC
 70
     4
  9
$DIMTDEC
 70
     4
  9
$DIMALTU
 70
     2
  9
$DIMALTTD
 70
     2
  9
$DIMTXSTY
  7
ROMANS
  9
$DIMAUNIT
 70
     0
  9
$LUNITS
 70
     4
  9
$LUPREC
 70
     4
  9
$SKETCHINC
 40
0.1
  9
$FILLETRAD
 40
0.0
  9
$AUNITS
 70
     0
  9
$AUPREC
 70
     2
  9
$MENU
  1
.
  9
$ELEVATION
 40
0.0
  9
$PELEVATION
 40
0.0
  9
$THICKNESS
 40
0.0
  9
$LIMCHECK
 70
     0
  9
$BLIPMODE
 70
     0
  9
$CHAMFERA
 40
0.5
  9
$CHAMFERB
 40
0.5
  9
$CHAMFERC
 40
1.0
  9
$CHAMFERD
 40
0.0
  9
$SKPOLY
 70
     1
  9
$TDCREATE
 40
2450984.554779178
  9
$TDUPDATE
 40
2451561.569300312
  9
$TDINDWG
 40
0.5603316667
  9
$TDUSRTIMER
 40
0.5603316667
  9
$USRTIMER
 70
     1
  9
$ANGBASE
 50
0.0
  9
$ANGDIR
 70
     0
  9
$PDMODE
 70
     0
  9
$PDSIZE
 40
0.0
  9
$PLINEWID
 40
0.0
  9
$COORDS
 70
     2
  9
$SPLFRAME
 70
     0
  9
$SPLINETYPE
 70
     6
  9
$SPLINESEGS
 70
     8
  9
$ATTDIA
 70
     1
  9
$ATTREQ
 70
     1
  9
$HANDLING
 70
     1
  9
$HANDSEED
  5
60
  9
$SURFTAB1
 70
     6
  9
$SURFTAB2
 70
     6
  9
$SURFTYPE
 70
     6
  9
$SURFU
 70
     6
  9
$SURFV
 70
     6
  9
$UCSNAME
  2

  9
$UCSORG
 10
0.0
 20
0.0
 30
0.0
  9
$UCSXDIR
 10
1.0
 20
0.0
 30
0.0
  9
$UCSYDIR
 10
0.0
 20
1.0
 30
0.0
  9
$PUCSNAME
  2

  9
$PUCSORG
 10
0.0
 20
0.0
 30
0.0
  9
$PUCSXDIR
 10
1.0
 20
0.0
 30
0.0
  9
$PUCSYDIR
 10
0.0
 20
1.0
 30
0.0
  9
$USERI1
 70
     0
  9
$USERI2
 70
     0
  9
$USERI3
 70
     0
  9
$USERI4
 70
     0
  9
$USERI5
 70
     0
  9
$USERR1
 40
96.0
  9
$USERR2
 40
0.0
  9
$USERR3
 40
0.0
  9
$USERR4
 40
0.0
  9
$USERR5
 40
0.0
  9
$WORLDVIEW
 70
     1
  9
$SHADEDGE
 70
     3
  9
$SHADEDIF
 70
    70
  9
$TILEMODE
 70
     1
  9
$MAXACTVP
 70
    48
  9
$PINSBASE
 10
0.0
 20
0.0
 30
0.0
  9
$PLIMCHECK
 70
     0
  9
$PEXTMIN
 10
1.000000E+20
 20
1.000000E+20
 30
1.000000E+20
  9
$PEXTMAX
 10
-1.000000E+20
 20
-1.000000E+20
 30
-1.000000E+20
  9
$PLIMMIN
 10
0.0
 20
0.0
  9
$PLIMMAX
 10
12.0
 20
9.0
  9
$UNITMODE
 70
     0
  9
$VISRETAIN
 70
     1
  9
$PLINEGEN
 70
     1
  9
$PSLTSCALE
 70
     1
  9
$TREEDEPTH
 70
  3020
  9
$PICKSTYLE
 70
     1
  9
$CMLSTYLE
  2
STANDARD
  9
$CMLJUST
 70
     0
  9
$CMLSCALE
 40
1.0
  9
$PROXYGRAPHICS
 70
     1
  9
$MEASUREMENT
 70
     0
  0
ENDSEC
  0
SECTION
  2
CLASSES
  0
CLASS
  1
LWPOLYLINE
  2
AcDbPolyline
  3
"AutoCAD"
 90
        0
280
     0
281
     1
  0
CLASS
  1
DICTIONARYVAR
  2
AcDbDictionaryVar
  3
"AutoCAD"
 90
        0
280
     0
281
     0
  0
CLASS
  1
HATCH
  2
AcDbHatch
  3
"ACAD_SEDONA"
 90
        0
280
     0
281
     1
  0
CLASS
  1
XRECORD
  2
AcDbXrecord
  3
"<Built In>"
 90
        0
280
     0
281
     0
  0
ENDSEC
  0
SECTION
  2
TABLES
  0
TABLE
  2
VPORT
  5
12
100
AcDbSymbolTable
 70
     2
  0
VPORT
  5
5F
100
AcDbSymbolTableRecord
100
AcDbViewportTableRecord
  2
*ACTIVE
 70
     0
 10
0.0
 20
0.0
 11
1.0
 21
1.0
 12
48.000824
 22
-3.810324
 13
126.431726
 23
84.642504
 14
24.0
 24
24.0
 15
96.0
 25
96.0
 16
0.0
 26
0.0
 36
1.0
 17
0.0
 27
0.0
 37
0.0
 40
56.832268
 41
1.700368
 42
50.0
 43
0.0
 44
0.0
 50
0.0
 51
0.0
 71
     0
 72
  2000
 73
     1
 74
     0
 75
     0
 76
     1
 77
     0
 78
     1
  0
ENDTAB
  0
TABLE
  2
LTYPE
  5
D
100
AcDbSymbolTable
 70
     2
  0
LTYPE
  5
E
100
AcDbSymbolTableRecord
100
AcDbLinetypeTableRecord
  2
BYBLOCK
 70
     0
  3

 72
    65
 73
     0
 40
0.0
  0
LTYPE
  5
F
100
AcDbSymbolTableRecord
100
AcDbLinetypeTableRecord
  2
BYLAYER
 70
     0
  3

 72
    65
 73
     0
 40
0.0
  0
LTYPE
  5
5
100
AcDbSymbolTableRecord
100
AcDbLinetypeTableRecord
  2
CONTINUOUS
 70
     0
  3
Solid line
 72
    65
 73
     0
 40
0.0
  0
LTYPE
  5
1F
100
AcDbSymbolTableRecord
100
AcDbLinetypeTableRecord
  2
HIDDEN2
 70
     0
  3
Hidden (.5x) _ _ _ _ _ _ _ _ _ _ _ _ _ _ _ _ _
 72
    65
 73
     2
 40
0.1875
 49
0.125
 74
     0
 49
-0.0625
 74
     0
  0
ENDTAB
  0
TABLE
  2
LAYER
  5
A
100
AcDbSymbolTable
 70
     3
  0
LAYER
  5
4
100
AcDbSymbolTableRecord
100
AcDbLayerTableRecord
  2
0
 70
     0
 62
     7
  6
CONTINUOUS
  0
LAYER
  5
21
100
AcDbSymbolTableRecord
100
AcDbLayerTableRecord
  2
A-WALL-SHKE
 70
     0
 62
     7
  6
CONTINUOUS
  0
LAYER
  5
1E
100
AcDbSymbolTableRecord
100
AcDbLayerTableRecord
  2
A-WALL-SHKE-HELP
 70
     0
 62
     2
  6
CONTINUOUS
  0
ENDTAB
  0
TABLE
  2
STYLE
  5
B
100
AcDbSymbolTable
 70
     2
  0
STYLE
  5
C
100
AcDbSymbolTableRecord
100
AcDbTextStyleTableRecord
  2
STANDARD
 70
     0
 40
0.0
 41
0.81
 50
0.0
 71
     0
 42
1.5
  3
romans.shx
  4

  0
STYLE
  5
53
100
AcDbSymbolTableRecord
100
AcDbTextStyleTableRecord
  2
ROMANS
 70
     0
 40
0.0
 41
0.81
 50
0.0
 71
     0
 42
12.0
  3
romans.shx
  4

  0
ENDTAB
  0
TABLE
  2
VIEW
  5
10
100
AcDbSymbolTable
 70
     0
  0
ENDTAB
  0
TABLE
  2
UCS
  5
11
100
AcDbSymbolTable
 70
     0
  0
ENDTAB
  0
TABLE
  2
APPID
  5
14
100
AcDbSymbolTable
 70
     1
  0
APPID
  5
15
100
AcDbSymbolTableRecord
100
AcDbRegAppTableRecord
  2
ACAD
 70
     0
  0
ENDTAB
  0
TABLE
  2
DIMSTYLE
  5
16
100
AcDbSymbolTable
 70
     4
  0
DIMSTYLE
105
1C
100
AcDbSymbolTableRecord
100
AcDbDimStyleTableRecord
  2
STANDARD
 70
     0
  3

  4

  5

  6

  7

 40
1.0
 41
0.18
 42
0.0625
 43
0.38
 44
0.18
 45
0.0
 46
0.0
 47
0.0
 48
0.0
140
0.18
141
0.09
142
0.0
143
25.4
144
1.0
145
0.0
146
1.0
147
0.09
 71
     0
 72
     0
 73
     1
 74
     1
 75
     0
 76
     0
 77
     0
 78
     0
170
     0
171
     2
172
     0
173
     0
174
     0
175
     0
176
     0
177
     0
178
     0
270
     2
271
     4
272
     4
273
     2
274
     2
340
C
275
     0
280
     0
281
     0
282
     0
283
     1
284
     0
285
     0
286
     0
287
     3
288
     0
  0
DIMSTYLE
105
54
100
AcDbSymbolTableRecord
100
AcDbDimStyleTableRecord
  2
FACDIM_METRIC
 70
     0
  3
 mm
  4

  5

  6

  7

 40
0.0
 41
0.125
 42
0.0625
 43
0.0
 44
0.0625
 45
0.125
 46
0.0
 47
0.0
 48
0.0
140
0.125
141
0.09375
142
0.0
143
25.4
144
1.0
145
0.0
146
0.8
147
0.0
 71
     0
 72
     0
 73
     0
 74
     0
 75
     0
 76
     0
 77
     1
 78
     3
170
     0
171
     2
172
     1
173
     0
174
     1
175
     0
176
     3
177
     3
178
   256
270
     6
271
     4
272
     4
273
     2
274
     2
340
53
275
     0
280
     0
281
     0
282
     0
283
     1
284
     0
285
     0
286
     0
287
     3
288
     0
  0
DIMSTYLE
105
55
100
AcDbSymbolTableRecord
100
AcDbDimStyleTableRecord
  2
FACDIML
 70
     0
  3
 mm
  4

  5

  6

  7

 40
0.0
 41
0.125
 42
0.0625
 43
0.0
 44
0.0625
 45
0.125
 46
0.0
 47
0.0
 48
0.0
140
0.125
141
0.09375
142
0.0
143
25.4
144
1.0
145
0.0
146
0.8
147
0.0625
 71
     0
 72
     0
 73
     0
 74
     0
 75
     0
 76
     0
 77
     0
 78
     3
170
     0
171
     2
172
     1
173
     0
174
     1
175
     0
176
     3
177
     3
178
   256
270
     6
271
     4
272
     4
273
     2
274
     2
340
53
275
     0
280
     0
281
     0
282
     0
283
     1
284
     0
285
     0
286
     0
287
     3
288
     0
  0
DIMSTYLE
105
56
100
AcDbSymbolTableRecord
100
AcDbDimStyleTableRecord
  2
FACDIM
 70
     0
  3
 
  4

  5

  6

  7

 40
0.0
 41
0.125
 42
0.0625
 43
0.0
 44
0.0625
 45
0.125
 46
0.0
 47
0.0
 48
0.0
140
0.125
141
0.09375
142
0.0
143
25.4
144
1.0
145
0.0
146
0.8
147
0.0312
 71
     0
 72
     0
 73
     0
 74
     0
 75
     0
 76
     0
 77
     1
 78
     3
170
     0
171
     2
172
     1
173
     0
174
     1
175
     0
176
     3
177
     3
178
   256
270
     6
271
     4
272
     4
273
     2
274
     2
340
53
275
     0
280
     0
281
     0
282
     0
283
     1
284
     0
285
     0
286
     0
287
     3
288
     0
  0
ENDTAB
  0
TABLE
  2
BLOCK_RECORD
  5
1
100
AcDbSymbolTable
 70
     1
  0
BLOCK_RECORD
  5
2
100
AcDbSymbolTableRecord
100
AcDbBlockTableRecord
  2
*MODEL_SPACE
  0
BLOCK_RECORD
  5
7
100
AcDbSymbolTableRecord
100
AcDbBlockTableRecord
  2
*PAPER_SPACE
  0
BLOCK_RECORD
  5
57
100
AcDbSymbolTableRecord
100
AcDbBlockTableRecord
  2
NEWCOLOR
  0
ENDTAB
  0
ENDSEC
  0
SECTION
  2
BLOCKS
  0
BLOCK
  5
3
100
AcDbEntity
  8
0
100
AcDbBlockBegin
  2
*MODEL_SPACE
 70
     0
 10
0.0
 20
0.0
 30
0.0
  3
*MODEL_SPACE
  1

  0
ENDBLK
  5
6
100
AcDbEntity
  8
0
100
AcDbBlockEnd
  0
BLOCK
  5
8
100
AcDbEntity
 67
     1
  8
0
100
AcDbBlockBegin
  2
*PAPER_SPACE
 70
     0
 10
0.0
 20
0.0
 30
0.0
  3
*PAPER_SPACE
  1

  0
ENDBLK
  5
9
100
AcDbEntity
 67
     1
  8
0
100
AcDbBlockEnd
  0
BLOCK
  5
58
100
AcDbEntity
  8
0
100
AcDbBlockBegin
  2
NEWCOLOR
 70
     0
 10
0.0
 20
0.0
 30
0.0
  3
NEWCOLOR
  1

  0
ENDBLK
  5
59
100
AcDbEntity
  8
0
100
AcDbBlockEnd
  0
ENDSEC
  0
SECTION
  2
ENTITIES
  0
LINE
  5
1D
100
AcDbEntity
  8
A-WALL-SHKE-HELP
  6
HIDDEN2
100
AcDbLine
 10
0.0
 20
-5.0
 30
0.0
 11
96.0
 21
-5.0
 31
0.0
  0
ARC
  5
20
100
AcDbEntity
  8
A-WALL-SHKE
100
AcDbCircle
 10
78.315789
 20
-4.778564
 30
0.0
 40
2.846436
100
AcDbArc
 50
207.434693
 51
332.565307
  0
LINE
  5
22
100
AcDbEntity
  8
A-WALL-SHKE-HELP
  6
HIDDEN2
100
AcDbLine
 10
0.0
 20
0.0
 30
0.0
 11
96.0
 21
0.0
 31
0.0
  0
ARC
  5
23
100
AcDbEntity
  8
A-WALL-SHKE
100
AcDbCircle
 10
7.578947
 20
-4.778564
 30
0.0
 40
2.846436
100
AcDbArc
 50
207.434693
 51
332.565307
  0
ARC
  5
24
100
AcDbEntity
  8
A-WALL-SHKE
100
AcDbCircle
 10
2.526316
 20
-4.778564
 30
0.0
 40
2.846436
100
AcDbArc
 50
207.434693
 51
332.565307
  0
LINE
  5
25
100
AcDbEntity
  8
A-WALL-SHKE
100
AcDbLine
 10
0.0
 20
-6.090023
 30
0.0
 11
0.0
 21
0.0
 31
0.0
  0
LINE
  5
26
100
AcDbEntity
  8
A-WALL-SHKE
100
AcDbLine
 10
5.052632
 20
-6.090023
 30
0.0
 11
5.052632
 21
0.0
 31
0.0
  0
ARC
  5
27
100
AcDbEntity
  8
A-WALL-SHKE
100
AcDbCircle
 10
42.947368
 20
-4.778564
 30
0.0
 40
2.846436
100
AcDbArc
 50
207.434693
 51
332.565307
  0
ARC
  5
28
100
AcDbEntity
  8
A-WALL-SHKE
100
AcDbCircle
 10
27.789474
 20
-4.778564
 30
0.0
 40
2.846436
100
AcDbArc
 50
207.434693
 51
332.565307
  0
ARC
  5
29
100
AcDbEntity
  8
A-WALL-SHKE
100
AcDbCircle
 10
17.684211
 20
-4.778564
 30
0.0
 40
2.846436
100
AcDbArc
 50
207.434693
 51
332.565307
  0
LINE
  5
2A
100
AcDbEntity
  8
A-WALL-SHKE
100
AcDbLine
 10
15.157895
 20
-6.090023
 30
0.0
 11
15.157895
 21
0.0
 31
0.0
  0
LINE
  5
2B
100
AcDbEntity
  8
A-WALL-SHKE
100
AcDbLine
 10
10.105263
 20
-6.090023
 30
0.0
 11
10.105263
 21
0.0
 31
0.0
  0
ARC
  5
2C
100
AcDbEntity
  8
A-WALL-SHKE
100
AcDbCircle
 10
12.631579
 20
-4.778564
 30
0.0
 40
2.846436
100
AcDbArc
 50
207.434693
 51
332.565307
  0
LINE
  5
2D
100
AcDbEntity
  8
A-WALL-SHKE
100
AcDbLine
 10
25.263158
 20
-6.090023
 30
0.0
 11
25.263158
 21
0.0
 31
0.0
  0
LINE
  5
2E
100
AcDbEntity
  8
A-WALL-SHKE
100
AcDbLine
 10
20.210526
 20
-6.090023
 30
0.0
 11
20.210526
 21
0.0
 31
0.0
  0
ARC
  5
2F
100
AcDbEntity
  8
A-WALL-SHKE
100
AcDbCircle
 10
22.736842
 20
-4.778564
 30
0.0
 40
2.846436
100
AcDbArc
 50
207.434693
 51
332.565307
  0
ARC
  5
30
100
AcDbEntity
  8
A-WALL-SHKE
100
AcDbCircle
 10
32.842105
 20
-4.778564
 30
0.0
 40
2.846436
100
AcDbArc
 50
207.434693
 51
332.565307
  0
LINE
  5
31
100
AcDbEntity
  8
A-WALL-SHKE
100
AcDbLine
 10
30.315789
 20
-6.090023
 30
0.0
 11
30.315789
 21
0.0
 31
0.0
  0
LINE
  5
32
100
AcDbEntity
  8
A-WALL-SHKE
100
AcDbLine
 10
40.421053
 20
-6.090023
 30
0.0
 11
40.421053
 21
0.0
 31
0.0
  0
LINE
  5
33
100
AcDbEntity
  8
A-WALL-SHKE
100
AcDbLine
 10
35.368421
 20
-6.090023
 30
0.0
 11
35.368421
 21
0.0
 31
0.0
  0
ARC
  5
34
100
AcDbEntity
  8
A-WALL-SHKE
100
AcDbCircle
 10
37.894737
 20
-4.778564
 30
0.0
 40
2.846436
100
AcDbArc
 50
207.434693
 51
332.565307
  0
ARC
  5
35
100
AcDbEntity
  8
A-WALL-SHKE
100
AcDbCircle
 10
58.105263
 20
-4.778564
 30
0.0
 40
2.846436
100
AcDbArc
 50
207.434693
 51
332.565307
  0
ARC
  5
36
100
AcDbEntity
  8
A-WALL-SHKE
100
AcDbCircle
 10
53.052632
 20
-4.778564
 30
0.0
 40
2.846436
100
AcDbArc
 50
207.434693
 51
332.565307
  0
LINE
  5
37
100
AcDbEntity
  8
A-WALL-SHKE
100
AcDbLine
 10
50.526316
 20
-6.090023
 30
0.0
 11
50.526316
 21
0.0
 31
0.0
  0
LINE
  5
38
100
AcDbEntity
  8
A-WALL-SHKE
100
AcDbLine
 10
45.473684
 20
-6.090023
 30
0.0
 11
45.473684
 21
0.0
 31
0.0
  0
ARC
  5
39
100
AcDbEntity
  8
A-WALL-SHKE
100
AcDbCircle
 10
48.0
 20
-4.778564
 30
0.0
 40
2.846436
100
AcDbArc
 50
207.434693
 51
332.565307
  0
LINE
  5
3A
100
AcDbEntity
  8
A-WALL-SHKE
100
AcDbLine
 10
55.578947
 20
-6.090023
 30
0.0
 11
55.578947
 21
0.0
 31
0.0
  0
ARC
  5
3B
100
AcDbEntity
  8
A-WALL-SHKE
100
AcDbCircle
 10
68.210526
 20
-4.778564
 30
0.0
 40
2.846436
100
AcDbArc
 50
207.434693
 51
332.565307
  0
LINE
  5
3C
100
AcDbEntity
  8
A-WALL-SHKE
100
AcDbLine
 10
65.684211
 20
-6.090023
 30
0.0
 11
65.684211
 21
0.0
 31
0.0
  0
LINE
  5
3D
100
AcDbEntity
  8
A-WALL-SHKE
100
AcDbLine
 10
60.631579
 20
-6.090023
 30
0.0
 11
60.631579
 21
0.0
 31
0.0
  0
ARC
  5
3E
100
AcDbEntity
  8
A-WALL-SHKE
100
AcDbCircle
 10
63.157895
 20
-4.778564
 30
0.0
 40
2.846436
100
AcDbArc
 50
207.434693
 51
332.565307
  0
LINE
  5
3F
100
AcDbEntity
  8
A-WALL-SHKE
100
AcDbLine
 10
75.789474
 20
-6.090023
 30
0.0
 11
75.789474
 21
0.0
 31
0.0
  0
LINE
  5
40
100
AcDbEntity
  8
A-WALL-SHKE
100
AcDbLine
 10
70.736842
 20
-6.090023
 30
0.0
 11
70.736842
 21
0.0
 31
0.0
  0
ARC
  5
41
100
AcDbEntity
  8
A-WALL-SHKE
100
AcDbCircle
 10
73.263158
 20
-4.778564
 30
0.0
 40
2.846436
100
AcDbArc
 50
207.434693
 51
332.565307
  0
ARC
  5
42
100
AcDbEntity
  8
A-WALL-SHKE
100
AcDbCircle
 10
93.473684
 20
-4.778564
 30
0.0
 40
2.846436
100
AcDbArc
 50
207.434693
 51
332.565307
  0
ARC
  5
43
100
AcDbEntity
  8
A-WALL-SHKE
100
AcDbCircle
 10
88.421053
 20
-4.778564
 30
0.0
 40
2.846436
100
AcDbArc
 50
207.434693
 51
332.565307
  0
LINE
  5
44
100
AcDbEntity
  8
A-WALL-SHKE
100
AcDbLine
 10
85.894737
 20
-6.090023
 30
0.0
 11
85.894737
 21
0.0
 31
0.0
  0
LINE
  5
45
100
AcDbEntity
  8
A-WALL-SHKE
100
AcDbLine
 10
80.842105
 20
-6.090023
 30
0.0
 11
80.842105
 21
0.0
 31
0.0
  0
ARC
  5
46
100
AcDbEntity
  8
A-WALL-SHKE
100
AcDbCircle
 10
83.368421
 20
-4.778564
 30
0.0
 40
2.846436
100
AcDbArc
 50
207.434693
 51
332.565307
  0
LINE
  5
47
100
AcDbEntity
  8
A-WALL-SHKE
100
AcDbLine
 10
90.947368
 20
-6.090023
 30
0.0
 11
90.947368
 21
0.0
 31
0.0
  0
LINE
  5
48
100
AcDbEntity
  8
A-WALL-SHKE
100
AcDbLine
 10
96.0
 20
-6.090023
 30
0.0
 11
96.0
 21
0.0
 31
0.0
  0
INSERT
  5
5A
100
AcDbEntity
  8
0
  6
HIDDEN2
100
AcDbBlockReference
  2
NEWCOLOR
 10
0.0
 20
0.0
 30
0.0
  0
ENDSEC
  0
SECTION
  2
OBJECTS
  0
DICTIONARY
  5
1A
100
AcDbDictionary
  3
ACAD_GROUP
350
18
  3
ACAD_MLINESTYLE
350
19
  0
DICTIONARY
  5
18
102
{ACAD_REACTORS
330
1A
102
}
100
AcDbDictionary
  0
DICTIONARY
  5
19
102
{ACAD_REACTORS
330
1A
102
}
100
AcDbDictionary
  3
STANDARD
350
1B
  0
MLINESTYLE
  5
1B
102
{ACAD_REACTORS
330
19
102
}
100
AcDbMlineStyle
  2
STANDARD
 70
     0
  3

 62
     0
 51
90.0
 52
90.0
 71
     2
 49
0.5
 62
   256
  6
BYLAYER
 49
-0.5
 62
   256
  6
BYLAYER
  0
ENDSEC
  0
EOF
