  0
SECTION
  2
HEADER
  9
$ACADVER
  1
AC1014
  9
$ACADMAINTVER
 70
     0
  9
$DWGCODEPAGE
  3
ANSI_1252
  9
$INSBASE
 10
0.0
 20
0.0
 30
0.0
  9
$EXTMIN
 10
-1.0
 20
0.0
 30
0.0
  9
$EXTMAX
 10
96.0
 20
14.25
 30
0.0
  9
$LIMMIN
 10
0.0
 20
0.0
  9
$LIMMAX
 10
3456.096
 20
2304.096
  9
$ORTHOMODE
 70
     1
  9
$REGENMODE
 70
     1
  9
$FILLMODE
 70
     1
  9
$QTEXTMODE
 70
     0
  9
$MIRRTEXT
 70
     1
  9
$DRAGMODE
 70
     2
  9
$LTSCALE
 40
96.0
  9
$OSMODE
 70
     1
  9
$ATTMODE
 70
     1
  9
$TEXTSIZE
 40
12.0
  9
$TRACEWID
 40
6.0
  9
$TEXTSTYLE
  7
ROMANS
  9
$CLAYER
  8
0
  9
$CELTYPE
  6
BYLAYER
  9
$CECOLOR
 62
   256
  9
$CELTSCALE
 40
1.0
  9
$DELOBJ
 70
     1
  9
$DISPSILH
 70
     0
  9
$DIMSCALE
 40
96.0
  9
$DIMASZ
 40
0.125
  9
$DIMEXO
 40
0.0625
  9
$DIMDLI
 40
0.0
  9
$DIMRND
 40
0.125
  9
$DIMDLE
 40
0.0
  9
$DIMEXE
 40
0.0625
  9
$DIMTP
 40
0.0
  9
$DIMTM
 40
0.0
  9
$DIMTXT
 40
0.125
  9
$DIMCEN
 40
0.09375
  9
$DIMTSZ
 40
0.0
  9
$DIMTOL
 70
     0
  9
$DIMLIM
 70
     0
  9
$DIMTIH
 70
     0
  9
$DIMTOH
 70
     0
  9
$DIMSE1
 70
     0
  9
$DIMSE2
 70
     0
  9
$DIMTAD
 70
     1
  9
$DIMZIN
 70
     3
  9
$DIMBLK
  1

  9
$DIMASO
 70
     0
  9
$DIMSHO
 70
     1
  9
$DIMPOST
  1
 
  9
$DIMAPOST
  1

  9
$DIMALT
 70
     0
  9
$DIMALTD
 70
     2
  9
$DIMALTF
 40
25.4
  9
$DIMLFAC
 40
1.0
  9
$DIMTOFL
 70
     1
  9
$DIMTVP
 40
0.0
  9
$DIMTIX
 70
     1
  9
$DIMSOXD
 70
     0
  9
$DIMSAH
 70
     0
  9
$DIMBLK1
  1

  9
$DIMBLK2
  1

  9
$DIMSTYLE
  2
FACDIM
  9
$DIMCLRD
 70
     3
  9
$DIMCLRE
 70
     3
  9
$DIMCLRT
 70
   256
  9
$DIMTFAC
 40
0.8
  9
$DIMGAP
 40
0.0312
  9
$DIMJUST
 70
     0
  9
$DIMSD1
 70
     0
  9
$DIMSD2
 70
     0
  9
$DIMTOLJ
 70
     1
  9
$DIMTZIN
 70
     0
  9
$DIMALTZ
 70
     0
  9
$DIMALTTZ
 70
     0
  9
$DIMFIT
 70
     3
  9
$DIMUPT
 70
     0
  9
$DIMUNIT
 70
     6
  9
$DIMDEC
 70
     4
  9
$DIMTDEC
 70
     4
  9
$DIMALTU
 70
     2
  9
$DIMALTTD
 70
     2
  9
$DIMTXSTY
  7
ROMANS
  9
$DIMAUNIT
 70
     0
  9
$LUNITS
 70
     4
  9
$LUPREC
 70
     4
  9
$SKETCHINC
 40
0.1
  9
$FILLETRAD
 40
0.0
  9
$AUNITS
 70
     0
  9
$AUPREC
 70
     2
  9
$MENU
  1
.
  9
$ELEVATION
 40
0.0
  9
$PELEVATION
 40
0.0
  9
$THICKNESS
 40
0.0
  9
$LIMCHECK
 70
     0
  9
$BLIPMODE
 70
     0
  9
$CHAMFERA
 40
0.5
  9
$CHAMFERB
 40
0.5
  9
$CHAMFERC
 40
1.0
  9
$CHAMFERD
 40
0.0
  9
$SKPOLY
 70
     1
  9
$TDCREATE
 40
2450984.554779178
  9
$TDUPDATE
 40
2451561.567132951
  9
$TDINDWG
 40
0.5412237616
  9
$TDUSRTIMER
 40
0.5412237616
  9
$USRTIMER
 70
     1
  9
$ANGBASE
 50
0.0
  9
$ANGDIR
 70
     0
  9
$PDMODE
 70
     0
  9
$PDSIZE
 40
0.0
  9
$PLINEWID
 40
0.0
  9
$COORDS
 70
     2
  9
$SPLFRAME
 70
     0
  9
$SPLINETYPE
 70
     6
  9
$SPLINESEGS
 70
     8
  9
$ATTDIA
 70
     1
  9
$ATTREQ
 70
     1
  9
$HANDLING
 70
     1
  9
$HANDSEED
  5
B4
  9
$SURFTAB1
 70
     6
  9
$SURFTAB2
 70
     6
  9
$SURFTYPE
 70
     6
  9
$SURFU
 70
     6
  9
$SURFV
 70
     6
  9
$UCSNAME
  2

  9
$UCSORG
 10
0.0
 20
0.0
 30
0.0
  9
$UCSXDIR
 10
1.0
 20
0.0
 30
0.0
  9
$UCSYDIR
 10
0.0
 20
1.0
 30
0.0
  9
$PUCSNAME
  2

  9
$PUCSORG
 10
0.0
 20
0.0
 30
0.0
  9
$PUCSXDIR
 10
1.0
 20
0.0
 30
0.0
  9
$PUCSYDIR
 10
0.0
 20
1.0
 30
0.0
  9
$USERI1
 70
     0
  9
$USERI2
 70
     0
  9
$USERI3
 70
     0
  9
$USERI4
 70
     0
  9
$USERI5
 70
     0
  9
$USERR1
 40
96.0
  9
$USERR2
 40
0.0
  9
$USERR3
 40
0.0
  9
$USERR4
 40
0.0
  9
$USERR5
 40
0.0
  9
$WORLDVIEW
 70
     1
  9
$SHADEDGE
 70
     3
  9
$SHADEDIF
 70
    70
  9
$TILEMODE
 70
     1
  9
$MAXACTVP
 70
    48
  9
$PINSBASE
 10
0.0
 20
0.0
 30
0.0
  9
$PLIMCHECK
 70
     0
  9
$PEXTMIN
 10
1.000000E+20
 20
1.000000E+20
 30
1.000000E+20
  9
$PEXTMAX
 10
-1.000000E+20
 20
-1.000000E+20
 30
-1.000000E+20
  9
$PLIMMIN
 10
0.0
 20
0.0
  9
$PLIMMAX
 10
12.0
 20
9.0
  9
$UNITMODE
 70
     0
  9
$VISRETAIN
 70
     1
  9
$PLINEGEN
 70
     1
  9
$PSLTSCALE
 70
     1
  9
$TREEDEPTH
 70
  3020
  9
$PICKSTYLE
 70
     1
  9
$CMLSTYLE
  2
STANDARD
  9
$CMLJUST
 70
     0
  9
$CMLSCALE
 40
1.0
  9
$PROXYGRAPHICS
 70
     1
  9
$MEASUREMENT
 70
     0
  0
ENDSEC
  0
SECTION
  2
CLASSES
  0
CLASS
  1
LWPOLYLINE
  2
AcDbPolyline
  3
"AutoCAD"
 90
        0
280
     0
281
     1
  0
CLASS
  1
DICTIONARYVAR
  2
AcDbDictionaryVar
  3
"AutoCAD"
 90
        0
280
     0
281
     0
  0
CLASS
  1
HATCH
  2
AcDbHatch
  3
"ACAD_SEDONA"
 90
        0
280
     0
281
     1
  0
CLASS
  1
XRECORD
  2
AcDbXrecord
  3
"<Built In>"
 90
        0
280
     0
281
     0
  0
ENDSEC
  0
SECTION
  2
TABLES
  0
TABLE
  2
VPORT
  5
12
100
AcDbSymbolTable
 70
     2
  0
VPORT
  5
B3
100
AcDbSymbolTableRecord
100
AcDbViewportTableRecord
  2
*ACTIVE
 70
     0
 10
0.0
 20
0.0
 11
1.0
 21
1.0
 12
47.541974
 22
7.128286
 13
126.431726
 23
84.642504
 14
24.0
 24
24.0
 15
96.0
 25
96.0
 16
0.0
 26
0.0
 36
1.0
 17
0.0
 27
0.0
 37
0.0
 40
57.60893
 41
1.700368
 42
50.0
 43
0.0
 44
0.0
 50
0.0
 51
0.0
 71
     0
 72
  2000
 73
     1
 74
     0
 75
     0
 76
     1
 77
     0
 78
     1
  0
ENDTAB
  0
TABLE
  2
LTYPE
  5
D
100
AcDbSymbolTable
 70
     1
  0
LTYPE
  5
E
100
AcDbSymbolTableRecord
100
AcDbLinetypeTableRecord
  2
BYBLOCK
 70
     0
  3

 72
    65
 73
     0
 40
0.0
  0
LTYPE
  5
F
100
AcDbSymbolTableRecord
100
AcDbLinetypeTableRecord
  2
BYLAYER
 70
     0
  3

 72
    65
 73
     0
 40
0.0
  0
LTYPE
  5
5
100
AcDbSymbolTableRecord
100
AcDbLinetypeTableRecord
  2
CONTINUOUS
 70
     0
  3
Solid line
 72
    65
 73
     0
 40
0.0
  0
ENDTAB
  0
TABLE
  2
LAYER
  5
A
100
AcDbSymbolTable
 70
     2
  0
LAYER
  5
4
100
AcDbSymbolTableRecord
100
AcDbLayerTableRecord
  2
0
 70
     0
 62
     7
  6
CONTINUOUS
  0
LAYER
  5
1B
100
AcDbSymbolTableRecord
100
AcDbLayerTableRecord
  2
A-WALL-SHKE
 70
     0
 62
     7
  6
CONTINUOUS
  0
ENDTAB
  0
TABLE
  2
STYLE
  5
B
100
AcDbSymbolTable
 70
     2
  0
STYLE
  5
C
100
AcDbSymbolTableRecord
100
AcDbTextStyleTableRecord
  2
STANDARD
 70
     0
 40
0.0
 41
0.81
 50
0.0
 71
     0
 42
1.5
  3
romans.shx
  4

  0
STYLE
  5
A7
100
AcDbSymbolTableRecord
100
AcDbTextStyleTableRecord
  2
ROMANS
 70
     0
 40
0.0
 41
0.81
 50
0.0
 71
     0
 42
12.0
  3
romans.shx
  4

  0
ENDTAB
  0
TABLE
  2
VIEW
  5
10
100
AcDbSymbolTable
 70
     0
  0
ENDTAB
  0
TABLE
  2
UCS
  5
11
100
AcDbSymbolTable
 70
     0
  0
ENDTAB
  0
TABLE
  2
APPID
  5
14
100
AcDbSymbolTable
 70
     1
  0
APPID
  5
15
100
AcDbSymbolTableRecord
100
AcDbRegAppTableRecord
  2
ACAD
 70
     0
  0
ENDTAB
  0
TABLE
  2
DIMSTYLE
  5
16
100
AcDbSymbolTable
 70
     4
  0
DIMSTYLE
105
1D
100
AcDbSymbolTableRecord
100
AcDbDimStyleTableRecord
  2
STANDARD
 70
     0
  3

  4

  5

  6

  7

 40
1.0
 41
0.18
 42
0.0625
 43
0.38
 44
0.18
 45
0.0
 46
0.0
 47
0.0
 48
0.0
140
0.18
141
0.09
142
0.0
143
25.4
144
1.0
145
0.0
146
1.0
147
0.09
 71
     0
 72
     0
 73
     1
 74
     1
 75
     0
 76
     0
 77
     0
 78
     0
170
     0
171
     2
172
     0
173
     0
174
     0
175
     0
176
     0
177
     0
178
     0
270
     2
271
     4
272
     4
273
     2
274
     2
340
C
275
     0
280
     0
281
     0
282
     0
283
     1
284
     0
285
     0
286
     0
287
     3
288
     0
  0
DIMSTYLE
105
A8
100
AcDbSymbolTableRecord
100
AcDbDimStyleTableRecord
  2
FACDIM_METRIC
 70
     0
  3
 mm
  4

  5

  6

  7

 40
0.0
 41
0.125
 42
0.0625
 43
0.0
 44
0.0625
 45
0.125
 46
0.0
 47
0.0
 48
0.0
140
0.125
141
0.09375
142
0.0
143
25.4
144
1.0
145
0.0
146
0.8
147
0.0
 71
     0
 72
     0
 73
     0
 74
     0
 75
     0
 76
     0
 77
     1
 78
     3
170
     0
171
     2
172
     1
173
     0
174
     1
175
     0
176
     3
177
     3
178
   256
270
     6
271
     4
272
     4
273
     2
274
     2
340
A7
275
     0
280
     0
281
     0
282
     0
283
     1
284
     0
285
     0
286
     0
287
     3
288
     0
  0
DIMSTYLE
105
A9
100
AcDbSymbolTableRecord
100
AcDbDimStyleTableRecord
  2
FACDIML
 70
     0
  3
 mm
  4

  5

  6

  7

 40
0.0
 41
0.125
 42
0.0625
 43
0.0
 44
0.0625
 45
0.125
 46
0.0
 47
0.0
 48
0.0
140
0.125
141
0.09375
142
0.0
143
25.4
144
1.0
145
0.0
146
0.8
147
0.0625
 71
     0
 72
     0
 73
     0
 74
     0
 75
     0
 76
     0
 77
     0
 78
     3
170
     0
171
     2
172
     1
173
     0
174
     1
175
     0
176
     3
177
     3
178
   256
270
     6
271
     4
272
     4
273
     2
274
     2
340
A7
275
     0
280
     0
281
     0
282
     0
283
     1
284
     0
285
     0
286
     0
287
     3
288
     0
  0
DIMSTYLE
105
AA
100
AcDbSymbolTableRecord
100
AcDbDimStyleTableRecord
  2
FACDIM
 70
     0
  3
 
  4

  5

  6

  7

 40
0.0
 41
0.125
 42
0.0625
 43
0.0
 44
0.0625
 45
0.125
 46
0.0
 47
0.0
 48
0.0
140
0.125
141
0.09375
142
0.0
143
25.4
144
1.0
145
0.0
146
0.8
147
0.0312
 71
     0
 72
     0
 73
     0
 74
     0
 75
     0
 76
     0
 77
     1
 78
     3
170
     0
171
     2
172
     1
173
     0
174
     1
175
     0
176
     3
177
     3
178
   256
270
     6
271
     4
272
     4
273
     2
274
     2
340
A7
275
     0
280
     0
281
     0
282
     0
283
     1
284
     0
285
     0
286
     0
287
     3
288
     0
  0
ENDTAB
  0
TABLE
  2
BLOCK_RECORD
  5
1
100
AcDbSymbolTable
 70
     1
  0
BLOCK_RECORD
  5
2
100
AcDbSymbolTableRecord
100
AcDbBlockTableRecord
  2
*MODEL_SPACE
  0
BLOCK_RECORD
  5
7
100
AcDbSymbolTableRecord
100
AcDbBlockTableRecord
  2
*PAPER_SPACE
  0
BLOCK_RECORD
  5
AB
100
AcDbSymbolTableRecord
100
AcDbBlockTableRecord
  2
NEWCOLOR
  0
ENDTAB
  0
ENDSEC
  0
SECTION
  2
BLOCKS
  0
BLOCK
  5
3
100
AcDbEntity
  8
0
100
AcDbBlockBegin
  2
*MODEL_SPACE
 70
     0
 10
0.0
 20
0.0
 30
0.0
  3
*MODEL_SPACE
  1

  0
ENDBLK
  5
6
100
AcDbEntity
  8
0
100
AcDbBlockEnd
  0
BLOCK
  5
8
100
AcDbEntity
 67
     1
  8
0
100
AcDbBlockBegin
  2
*PAPER_SPACE
 70
     0
 10
0.0
 20
0.0
 30
0.0
  3
*PAPER_SPACE
  1

  0
ENDBLK
  5
9
100
AcDbEntity
 67
     1
  8
0
100
AcDbBlockEnd
  0
BLOCK
  5
AC
100
AcDbEntity
  8
0
100
AcDbBlockBegin
  2
NEWCOLOR
 70
     0
 10
0.0
 20
0.0
 30
0.0
  3
NEWCOLOR
  1

  0
ENDBLK
  5
AD
100
AcDbEntity
  8
0
100
AcDbBlockEnd
  0
ENDSEC
  0
SECTION
  2
ENTITIES
  0
LINE
  5
1E
100
AcDbEntity
  8
A-WALL-SHKE
100
AcDbLine
 10
95.0
 20
14.25
 30
0.0
 11
-1.0
 21
14.25
 31
0.0
  0
LINE
  5
1F
100
AcDbEntity
  8
A-WALL-SHKE
100
AcDbLine
 10
96.0
 20
7.125
 30
0.0
 11
-1.0
 21
7.125
 31
0.0
  0
LINE
  5
20
100
AcDbEntity
  8
A-WALL-SHKE
100
AcDbLine
 10
96.0
 20
0.0
 30
0.0
 11
0.0
 21
0.0
 31
0.0
  0
LINE
  5
21
100
AcDbEntity
  8
A-WALL-SHKE
100
AcDbLine
 10
0.0
 20
7.125
 30
0.0
 11
0.0
 21
0.0
 31
0.0
  0
LINE
  5
22
100
AcDbEntity
  8
A-WALL-SHKE
100
AcDbLine
 10
-1.0
 20
14.25
 30
0.0
 11
-1.0
 21
7.125
 31
0.0
  0
LINE
  5
2B
100
AcDbEntity
  8
A-WALL-SHKE
100
AcDbLine
 10
6.1875
 20
7.125
 30
0.0
 11
6.1875
 21
0.0
 31
0.0
  0
LINE
  5
2C
100
AcDbEntity
  8
A-WALL-SHKE
100
AcDbLine
 10
6.0
 20
7.125
 30
0.0
 11
6.0
 21
0.0
 31
0.0
  0
LINE
  5
2D
100
AcDbEntity
  8
A-WALL-SHKE
100
AcDbLine
 10
8.208937
 20
14.25
 30
0.0
 11
8.208937
 21
7.125
 31
0.0
  0
LINE
  5
2E
100
AcDbEntity
  8
A-WALL-SHKE
100
AcDbLine
 10
8.021437
 20
14.25
 30
0.0
 11
8.021437
 21
7.125
 31
0.0
  0
LINE
  5
4B
100
AcDbEntity
  8
A-WALL-SHKE
100
AcDbLine
 10
96.0
 20
7.125
 30
0.0
 11
96.0
 21
0.0
 31
0.0
  0
LINE
  5
5B
100
AcDbEntity
  8
A-WALL-SHKE
100
AcDbLine
 10
95.0
 20
14.25
 30
0.0
 11
95.0
 21
7.125
 31
0.0
  0
LINE
  5
65
100
AcDbEntity
  8
A-WALL-SHKE
100
AcDbLine
 10
20.208937
 20
14.25
 30
0.0
 11
20.208937
 21
7.125
 31
0.0
  0
LINE
  5
66
100
AcDbEntity
  8
A-WALL-SHKE
100
AcDbLine
 10
20.396437
 20
14.25
 30
0.0
 11
20.396437
 21
7.125
 31
0.0
  0
LINE
  5
67
100
AcDbEntity
  8
A-WALL-SHKE
100
AcDbLine
 10
26.396437
 20
14.25
 30
0.0
 11
26.396437
 21
7.125
 31
0.0
  0
LINE
  5
68
100
AcDbEntity
  8
A-WALL-SHKE
100
AcDbLine
 10
26.583937
 20
14.25
 30
0.0
 11
26.583937
 21
7.125
 31
0.0
  0
LINE
  5
69
100
AcDbEntity
  8
A-WALL-SHKE
100
AcDbLine
 10
33.583937
 20
14.25
 30
0.0
 11
33.583937
 21
7.125
 31
0.0
  0
LINE
  5
6A
100
AcDbEntity
  8
A-WALL-SHKE
100
AcDbLine
 10
33.771437
 20
14.25
 30
0.0
 11
33.771437
 21
7.125
 31
0.0
  0
LINE
  5
6B
100
AcDbEntity
  8
A-WALL-SHKE
100
AcDbLine
 10
43.771437
 20
14.25
 30
0.0
 11
43.771437
 21
7.125
 31
0.0
  0
LINE
  5
6C
100
AcDbEntity
  8
A-WALL-SHKE
100
AcDbLine
 10
43.958937
 20
14.25
 30
0.0
 11
43.958937
 21
7.125
 31
0.0
  0
LINE
  5
6D
100
AcDbEntity
  8
A-WALL-SHKE
100
AcDbLine
 10
51.958937
 20
14.25
 30
0.0
 11
51.958937
 21
7.125
 31
0.0
  0
LINE
  5
6E
100
AcDbEntity
  8
A-WALL-SHKE
100
AcDbLine
 10
52.146437
 20
14.25
 30
0.0
 11
52.146437
 21
7.125
 31
0.0
  0
LINE
  5
70
100
AcDbEntity
  8
A-WALL-SHKE
100
AcDbLine
 10
56.146437
 20
14.25
 30
0.0
 11
56.146437
 21
7.125
 31
0.0
  0
LINE
  5
71
100
AcDbEntity
  8
A-WALL-SHKE
100
AcDbLine
 10
56.333937
 20
14.25
 30
0.0
 11
56.333937
 21
7.125
 31
0.0
  0
LINE
  5
72
100
AcDbEntity
  8
A-WALL-SHKE
100
AcDbLine
 10
63.333937
 20
14.25
 30
0.0
 11
63.333937
 21
7.125
 31
0.0
  0
LINE
  5
73
100
AcDbEntity
  8
A-WALL-SHKE
100
AcDbLine
 10
63.521437
 20
14.25
 30
0.0
 11
63.521437
 21
7.125
 31
0.0
  0
LINE
  5
74
100
AcDbEntity
  8
A-WALL-SHKE
100
AcDbLine
 10
72.521437
 20
14.25
 30
0.0
 11
72.521437
 21
7.125
 31
0.0
  0
LINE
  5
75
100
AcDbEntity
  8
A-WALL-SHKE
100
AcDbLine
 10
72.708937
 20
14.25
 30
0.0
 11
72.708937
 21
7.125
 31
0.0
  0
LINE
  5
76
100
AcDbEntity
  8
A-WALL-SHKE
100
AcDbLine
 10
83.708937
 20
14.25
 30
0.0
 11
83.708937
 21
7.125
 31
0.0
  0
LINE
  5
77
100
AcDbEntity
  8
A-WALL-SHKE
100
AcDbLine
 10
88.896437
 20
14.25
 30
0.0
 11
88.896437
 21
7.125
 31
0.0
  0
LINE
  5
78
100
AcDbEntity
  8
A-WALL-SHKE
100
AcDbLine
 10
89.083937
 20
14.25
 30
0.0
 11
89.083937
 21
7.125
 31
0.0
  0
LINE
  5
79
100
AcDbEntity
  8
A-WALL-SHKE
100
AcDbLine
 10
17.1875
 20
7.125
 30
0.0
 11
17.1875
 21
0.0
 31
0.0
  0
LINE
  5
7A
100
AcDbEntity
  8
A-WALL-SHKE
100
AcDbLine
 10
17.375
 20
7.125
 30
0.0
 11
17.375
 21
0.0
 31
0.0
  0
LINE
  5
7B
100
AcDbEntity
  8
A-WALL-SHKE
100
AcDbLine
 10
23.375
 20
7.125
 30
0.0
 11
23.375
 21
0.0
 31
0.0
  0
LINE
  5
7C
100
AcDbEntity
  8
A-WALL-SHKE
100
AcDbLine
 10
23.5625
 20
7.125
 30
0.0
 11
23.5625
 21
0.0
 31
0.0
  0
LINE
  5
7D
100
AcDbEntity
  8
A-WALL-SHKE
100
AcDbLine
 10
31.5625
 20
7.125
 30
0.0
 11
31.5625
 21
0.0
 31
0.0
  0
LINE
  5
7E
100
AcDbEntity
  8
A-WALL-SHKE
100
AcDbLine
 10
31.75
 20
7.125
 30
0.0
 11
31.75
 21
0.0
 31
0.0
  0
LINE
  5
80
100
AcDbEntity
  8
A-WALL-SHKE
100
AcDbLine
 10
39.75
 20
7.125
 30
0.0
 11
39.75
 21
0.0
 31
0.0
  0
LINE
  5
81
100
AcDbEntity
  8
A-WALL-SHKE
100
AcDbLine
 10
39.9375
 20
7.125
 30
0.0
 11
39.9375
 21
0.0
 31
0.0
  0
LINE
  5
82
100
AcDbEntity
  8
A-WALL-SHKE
100
AcDbLine
 10
46.9375
 20
7.125
 30
0.0
 11
46.9375
 21
0.0
 31
0.0
  0
LINE
  5
83
100
AcDbEntity
  8
A-WALL-SHKE
100
AcDbLine
 10
47.125
 20
7.125
 30
0.0
 11
47.125
 21
0.0
 31
0.0
  0
LINE
  5
85
100
AcDbEntity
  8
A-WALL-SHKE
100
AcDbLine
 10
53.125
 20
7.125
 30
0.0
 11
53.125
 21
0.0
 31
0.0
  0
LINE
  5
86
100
AcDbEntity
  8
A-WALL-SHKE
100
AcDbLine
 10
53.3125
 20
7.125
 30
0.0
 11
53.3125
 21
0.0
 31
0.0
  0
LINE
  5
87
100
AcDbEntity
  8
A-WALL-SHKE
100
AcDbLine
 10
62.3125
 20
7.125
 30
0.0
 11
62.3125
 21
0.0
 31
0.0
  0
LINE
  5
88
100
AcDbEntity
  8
A-WALL-SHKE
100
AcDbLine
 10
62.5
 20
7.125
 30
0.0
 11
62.5
 21
0.0
 31
0.0
  0
LINE
  5
89
100
AcDbEntity
  8
A-WALL-SHKE
100
AcDbLine
 10
70.5
 20
7.125
 30
0.0
 11
70.5
 21
0.0
 31
0.0
  0
LINE
  5
8A
100
AcDbEntity
  8
A-WALL-SHKE
100
AcDbLine
 10
70.6875
 20
7.125
 30
0.0
 11
70.6875
 21
0.0
 31
0.0
  0
LINE
  5
8B
100
AcDbEntity
  8
A-WALL-SHKE
100
AcDbLine
 10
75.6875
 20
7.125
 30
0.0
 11
75.6875
 21
0.0
 31
0.0
  0
LINE
  5
8C
100
AcDbEntity
  8
A-WALL-SHKE
100
AcDbLine
 10
75.875
 20
7.125
 30
0.0
 11
75.875
 21
0.0
 31
0.0
  0
LINE
  5
8D
100
AcDbEntity
  8
A-WALL-SHKE
100
AcDbLine
 10
87.875
 20
7.125
 30
0.0
 11
87.875
 21
0.0
 31
0.0
  0
LINE
  5
8E
100
AcDbEntity
  8
A-WALL-SHKE
100
AcDbLine
 10
88.0625
 20
7.125
 30
0.0
 11
88.0625
 21
0.0
 31
0.0
  0
LINE
  5
8F
100
AcDbEntity
  8
A-WALL-SHKE
100
AcDbLine
 10
83.896437
 20
14.25
 30
0.0
 11
83.896437
 21
7.125
 31
0.0
  0
INSERT
  5
AE
100
AcDbEntity
  8
0
100
AcDbBlockReference
  2
NEWCOLOR
 10
0.0
 20
0.0
 30
0.0
  0
ENDSEC
  0
SECTION
  2
OBJECTS
  0
DICTIONARY
  5
1A
100
AcDbDictionary
  3
ACAD_GROUP
350
18
  3
ACAD_MLINESTYLE
350
19
  3
BNS_SELSET
350
90
  0
DICTIONARY
  5
18
102
{ACAD_REACTORS
330
1A
102
}
100
AcDbDictionary
  0
DICTIONARY
  5
19
102
{ACAD_REACTORS
330
1A
102
}
100
AcDbDictionary
  3
STANDARD
350
1C
  0
DICTIONARY
  5
90
102
{ACAD_REACTORS
330
1A
102
}
100
AcDbDictionary
  3
BNS_SS01
350
91
  3
BNS_SS02
350
92
  3
BNS_SS03
350
93
  3
BNS_SS04
350
94
  3
BNS_SS05
350
95
  3
BNS_SS06
350
96
  3
BNS_SS07
350
97
  3
BNS_SS08
350
98
  3
BNS_SS09
350
99
  3
BNS_SS10
350
9A
  0
MLINESTYLE
  5
1C
102
{ACAD_REACTORS
330
19
102
}
100
AcDbMlineStyle
  2
STANDARD
 70
     0
  3

 62
     0
 51
90.0
 52
90.0
 71
     2
 49
0.5
 62
   256
  6
BYLAYER
 49
-0.5
 62
   256
  6
BYLAYER
  0
XRECORD
  5
91
102
{ACAD_REACTORS
330
90
102
}
100
AcDbXrecord
330
77
330
78
  0
XRECORD
  5
92
102
{ACAD_REACTORS
330
90
102
}
100
AcDbXrecord
330
76
  0
XRECORD
  5
93
102
{ACAD_REACTORS
330
90
102
}
100
AcDbXrecord
330
8D
  0
XRECORD
  5
94
102
{ACAD_REACTORS
330
90
102
}
100
AcDbXrecord
330
8C
  0
XRECORD
  5
95
102
{ACAD_REACTORS
330
90
102
}
100
AcDbXrecord
330
8B
  0
XRECORD
  5
96
102
{ACAD_REACTORS
330
90
102
}
100
AcDbXrecord
330
8A
  0
XRECORD
  5
97
102
{ACAD_REACTORS
330
90
102
}
100
AcDbXrecord
330
89
  0
XRECORD
  5
98
102
{ACAD_REACTORS
330
90
102
}
100
AcDbXrecord
330
88
  0
XRECORD
  5
99
102
{ACAD_REACTORS
330
90
102
}
100
AcDbXrecord
330
87
  0
XRECORD
  5
9A
102
{ACAD_REACTORS
330
90
102
}
100
AcDbXrecord
330
86
  0
ENDSEC
  0
EOF
